  0
SECTION
  2
HEADER
  9
$ACADVER
  1
AC1009
  9
$INSBASE
 10
166.7102379999999
 20
135.007662
 30
0.0
  9
$EXTMIN
 10
166.7102379999999
 20
135.007662
 30
0.0
  9
$EXTMAX
 10
840.2809309529662
 20
516.9603069529663
 30
0.0
  9
$LIMMIN
 10
0.0
 20
0.0
  9
$LIMMAX
 10
420.0
 20
297.0
  9
$ORTHOMODE
 70
     1
  9
$REGENMODE
 70
     1
  9
$FILLMODE
 70
     1
  9
$QTEXTMODE
 70
     0
  9
$MIRRTEXT
 70
     0
  9
$DRAGMODE
 70
     2
  9
$LTSCALE
 40
1.0
  9
$OSMODE
 70
     0
  9
$ATTMODE
 70
     2
  9
$TEXTSIZE
 40
3.5
  9
$TRACEWID
 40
0.1
  9
$TEXTSTYLE
  7
STANDARD
  9
$CLAYER
  8
0
  9
$CELTYPE
  6
BYLAYER
  9
$CECOLOR
 62
   256
  9
$DIMSCALE
 40
1.0
  9
$DIMASZ
 40
2.0
  9
$DIMEXO
 40
1.0
  9
$DIMDLI
 40
8.0
  9
$DIMRND
 40
0.0
  9
$DIMDLE
 40
0.0
  9
$DIMEXE
 40
2.0
  9
$DIMTP
 40
0.1
  9
$DIMTM
 40
0.1
  9
$DIMTXT
 40
3.5
  9
$DIMCEN
 40
2.0
  9
$DIMTSZ
 40
0.0
  9
$DIMTOL
 70
     0
  9
$DIMLIM
 70
     0
  9
$DIMTIH
 70
     0
  9
$DIMTOH
 70
     0
  9
$DIMSE1
 70
     0
  9
$DIMSE2
 70
     0
  9
$DIMTAD
 70
     1
  9
$DIMZIN
 70
     8
  9
$DIMBLK
  1

  9
$DIMASO
 70
     1
  9
$DIMSHO
 70
     1
  9
$DIMPOST
  1

  9
$DIMAPOST
  1

  9
$DIMALT
 70
     0
  9
$DIMALTD
 70
     2
  9
$DIMALTF
 40
25.39999999999999
  9
$DIMLFAC
 40
1.0
  9
$DIMTOFL
 70
     1
  9
$DIMTVP
 40
0.0
  9
$DIMTIX
 70
     0
  9
$DIMSOXD
 70
     0
  9
$DIMSAH
 70
     0
  9
$DIMBLK1
  1

  9
$DIMBLK2
  1

  9
$DIMSTYLE
  2
*UNNAMED
  9
$DIMCLRD
 70
     0
  9
$DIMCLRE
 70
     0
  9
$DIMCLRT
 70
     0
  9
$DIMTFAC
 40
1.0
  9
$DIMGAP
 40
0.09
  9
$LUNITS
 70
     2
  9
$LUPREC
 70
     3
  9
$SKETCHINC
 40
0.1
  9
$FILLETRAD
 40
2.5
  9
$AUNITS
 70
     0
  9
$AUPREC
 70
     1
  9
$MENU
  1

  9
$ELEVATION
 40
0.0
  9
$PELEVATION
 40
0.0
  9
$THICKNESS
 40
0.0
  9
$LIMCHECK
 70
     0
  9
$BLIPMODE
 70
     0
  9
$CHAMFERA
 40
5.0
  9
$CHAMFERB
 40
5.0
  9
$SKPOLY
 70
     1
  9
$TDCREATE
 40
2448888.414871759
  9
$TDUPDATE
 40
2449393.440407638
  9
$TDINDWG
 40
0.0003724537
  9
$TDUSRTIMER
 40
0.0003724537
  9
$USRTIMER
 70
     1
  9
$ANGBASE
 50
0.0
  9
$ANGDIR
 70
     0
  9
$PDMODE
 70
     0
  9
$PDSIZE
 40
0.0
  9
$PLINEWID
 40
0.0
  9
$COORDS
 70
     2
  9
$SPLFRAME
 70
     0
  9
$SPLINETYPE
 70
     6
  9
$SPLINESEGS
 70
     8
  9
$ATTDIA
 70
     1
  9
$ATTREQ
 70
     1
  9
$HANDLING
 70
     0
  9
$HANDSEED
  5
0
  9
$SURFTAB1
 70
     6
  9
$SURFTAB2
 70
     6
  9
$SURFTYPE
 70
     6
  9
$SURFU
 70
     6
  9
$SURFV
 70
     6
  9
$UCSNAME
  2

  9
$UCSORG
 10
0.0
 20
0.0
 30
0.0
  9
$UCSXDIR
 10
1.0
 20
0.0
 30
0.0
  9
$UCSYDIR
 10
0.0
 20
1.0
 30
0.0
  9
$PUCSNAME
  2

  9
$PUCSORG
 10
0.0
 20
0.0
 30
0.0
  9
$PUCSXDIR
 10
1.0
 20
0.0
 30
0.0
  9
$PUCSYDIR
 10
0.0
 20
1.0
 30
0.0
  9
$USERI1
 70
     0
  9
$USERI2
 70
     3
  9
$USERI3
 70
    15
  9
$USERI4
 70
     0
  9
$USERI5
 70
     0
  9
$USERR1
 40
1.0
  9
$USERR2
 40
1.0
  9
$USERR3
 40
0.0
  9
$USERR4
 40
1.0
  9
$USERR5
 40
0.0
  9
$WORLDVIEW
 70
     5
  9
$SHADEDGE
 70
     3
  9
$SHADEDIF
 70
    70
  9
$TILEMODE
 70
     1
  9
$MAXACTVP
 70
    16
  9
$PINSBASE
 10
0.0
 20
0.0
 30
0.0
  9
$PLIMCHECK
 70
     0
  9
$PEXTMIN
 10
1.000000000000000E+20
 20
1.000000000000000E+20
 30
1.000000000000000E+20
  9
$PEXTMAX
 10
-1.000000000000000E+20
 20
-1.000000000000000E+20
 30
-1.000000000000000E+20
  9
$PLIMMIN
 10
0.0
 20
0.0
  9
$PLIMMAX
 10
12.0
 20
9.0
  9
$UNITMODE
 70
     0
  9
$VISRETAIN
 70
     0
  9
$PLINEGEN
 70
     0
  9
$PSLTSCALE
 70
     0
  9
$TREEDEPTH
 70
  3020
  9
$DWGCODEPAGE
  3
undefined
  0
ENDSEC
  0
SECTION
  2
TABLES
  0
TABLE
  2
VPORT
 70
     2
  0
VPORT
  2
*ACTIVE
 70
     0
 10
0.0
 20
0.0
 11
1.0
 21
1.0
 12
503.236701
 22
398.8101859618644
 13
0.0
 23
0.0
 14
1.0
 24
1.0
 15
10.0
 25
10.0
 16
0.0
 26
0.0
 36
1.0
 17
0.0
 27
0.0
 37
0.0
 40
527.6050479237288
 41
1.275675675675675
 42
50.0
 43
0.0
 44
0.0
 50
0.0
 51
0.0
 71
     0
 72
   100
 73
     1
 74
     0
 75
     0
 76
     0
 77
     0
 78
     0
  0
ENDTAB
  0
TABLE
  2
LTYPE
 70
     3
  0
LTYPE
  2
CONTINUOUS
 70
    64
  3
Solid line
 72
    65
 73
     0
 40
0.0
  0
LTYPE
  2
GEN
 70
     0
  3
----------------------
 72
    65
 73
     2
 40
10000000000.0
 49
0.0
 49
10000000000.0
  0
LTYPE
  2
ITEM-STRICHPGR
 70
    64
  3
____ . ____ . ____ . ____ . ____ . ____ . ____
 72
    65
 73
     4
 40
15.0
 49
10.0
 49
-2.5
 49
0.0
 49
-2.5
  0
ENDTAB
  0
TABLE
  2
LAYER
 70
     3
  0
LAYER
  2
0
 70
     0
 62
     7
  6
CONTINUOUS
  0
LAYER
  2
ITEM_50
 70
    64
 62
     7
  6
CONTINUOUS
  0
LAYER
  2
ITEM_STPG
 70
    64
 62
     4
  6
ITEM-STRICHPGR
  0
ENDTAB
  0
TABLE
  2
STYLE
 70
     1
  0
STYLE
  2
STANDARD
 70
     0
 40
0.0
 41
1.0
 50
0.0
 71
     0
 42
3.5
  3
ISO8
  4

  0
ENDTAB
  0
TABLE
  2
VIEW
 70
     0
  0
ENDTAB
  0
TABLE
  2
UCS
 70
     0
  0
ENDTAB
  0
TABLE
  2
APPID
 70
     1
  0
APPID
  2
ACAD
 70
    64
  0
ENDTAB
  0
TABLE
  2
DIMSTYLE
 70
     0
  0
ENDTAB
  0
ENDSEC
  0
SECTION
  2
BLOCKS
  0
ENDSEC
  0
SECTION
  2
ENTITIES
  0
LINE
  8
ITEM_STPG
 10
584.6481139999999
 20
496.44254
 30
0.0
 11
166.7102379999999
 21
496.44254
 31
0.0
  0
LINE
  8
ITEM_50
 10
295.4873779999999
 20
516.44254
 30
0.0
 11
293.9873779999999
 21
516.44254
 31
0.0
  0
LINE
  8
ITEM_50
 10
459.487378
 20
513.94254
 30
0.0
 11
459.487378
 21
478.94254
 31
0.0
  0
LINE
  8
ITEM_50
 10
455.487378
 20
516.44254
 30
0.0
 11
456.987378
 21
516.44254
 31
0.0
  0
LINE
  8
ITEM_50
 10
455.487378
 20
516.44254
 30
0.0
 11
455.487378
 21
511.888833
 31
0.0
  0
LINE
  8
ITEM_50
 10
291.4873779999999
 20
478.94254
 30
0.0
 11
291.4873779999999
 21
513.94254
 31
0.0
  0
LINE
  8
ITEM_50
 10
295.4873779999999
 20
476.44254
 30
0.0
 11
293.9873779999999
 21
476.44254
 31
0.0
  0
LINE
  8
ITEM_50
 10
295.4873779999999
 20
476.44254
 30
0.0
 11
295.4873779999999
 21
516.44254
 31
0.0
  0
LINE
  8
ITEM_50
 10
295.4873779999999
 20
516.44254
 30
0.0
 11
455.487378
 21
516.44254
 31
0.0
  0
LINE
  8
ITEM_50
 10
291.4873779999999
 20
503.44254
 30
0.0
 11
224.039197
 21
503.44254
 31
0.0
  0
LINE
  8
ITEM_50
 10
291.4873779999999
 20
489.44254
 30
0.0
 11
224.039197
 21
489.44254
 31
0.0
  0
ARC
  8
ITEM_50
 10
456.987378
 20
513.94254
 30
0.0
 40
2.5
 50
0.0
 51
90.0
  0
ARC
  8
ITEM_50
 10
456.987378
 20
478.94254
 30
0.0
 40
2.5
 50
270.0
 51
0.0
  0
ARC
  8
ITEM_50
 10
293.9873779999999
 20
513.94254
 30
0.0
 40
2.5
 50
90.0
 51
180.0
  0
ARC
  8
ITEM_50
 10
293.9873779999999
 20
478.94254
 30
0.0
 40
2.5
 50
180.0
 51
270.0
  0
LINE
  8
ITEM_50
 10
295.4873779999999
 20
476.44254
 30
0.0
 11
456.987378
 21
476.44254
 31
0.0
  0
LINE
  8
ITEM_50
 10
455.487378
 20
511.888833
 30
0.0
 11
455.487378
 21
476.44254
 31
0.0
  0
LINE
  8
ITEM_50
 10
220.039197
 20
292.35899
 30
0.0
 11
180.039197
 21
292.35899
 31
0.0
  0
LINE
  8
ITEM_50
 10
220.039197
 20
284.35899
 30
0.0
 11
180.039197
 21
284.35899
 31
0.0
  0
LINE
  8
ITEM_50
 10
220.039197
 20
252.3589899999999
 30
0.0
 11
180.039197
 21
252.3589899999999
 31
0.0
  0
LINE
  8
ITEM_50
 10
220.039197
 20
244.3589899999999
 30
0.0
 11
180.039197
 21
244.3589899999999
 31
0.0
  0
LINE
  8
ITEM_50
 10
220.039197
 20
212.3589899999999
 30
0.0
 11
180.039197
 21
212.3589899999999
 31
0.0
  0
LINE
  8
ITEM_50
 10
220.039197
 20
204.3589899999999
 30
0.0
 11
180.039197
 21
204.3589899999999
 31
0.0
  0
LINE
  8
ITEM_50
 10
220.039197
 20
164.3589899999999
 30
0.0
 11
180.039197
 21
164.3589899999999
 31
0.0
  0
LINE
  8
ITEM_50
 10
220.039197
 20
172.3589899999999
 30
0.0
 11
180.039197
 21
172.3589899999999
 31
0.0
  0
ARC
  8
ITEM_50
 10
221.539197
 20
150.8589899999999
 30
0.0
 40
2.5
 50
270.0
 51
0.0
  0
ARC
  8
ITEM_50
 10
178.539197
 20
150.8589899999999
 30
0.0
 40
2.5
 50
180.0
 51
270.0
  0
ARC
  8
ITEM_50
 10
178.539197
 20
305.85899
 30
0.0
 40
2.5
 50
90.0
 51
180.0
  0
ARC
  8
ITEM_50
 10
221.539197
 20
305.85899
 30
0.0
 40
2.5
 50
0.0
 51
90.0
  0
LINE
  8
ITEM_50
 10
220.039197
 20
148.3589899999999
 30
0.0
 11
180.039197
 21
148.3589899999999
 31
0.0
  0
LINE
  8
ITEM_50
 10
178.539197
 20
148.3589899999999
 30
0.0
 11
180.039197
 21
148.3589899999999
 31
0.0
  0
LINE
  8
ITEM_50
 10
176.039197
 20
305.85899
 30
0.0
 11
176.039197
 21
150.8589899999999
 31
0.0
  0
LINE
  8
ITEM_50
 10
180.039197
 20
308.35899
 30
0.0
 11
178.539197
 21
308.35899
 31
0.0
  0
LINE
  8
ITEM_50
 10
221.539197
 20
308.35899
 30
0.0
 11
220.039197
 21
308.35899
 31
0.0
  0
LINE
  8
ITEM_50
 10
224.039197
 20
150.8589899999999
 30
0.0
 11
224.039197
 21
305.85899
 31
0.0
  0
LINE
  8
ITEM_50
 10
220.039197
 20
148.3589899999999
 30
0.0
 11
221.539197
 21
148.3589899999999
 31
0.0
  0
LINE
  8
ITEM_50
 10
180.039197
 20
308.35899
 30
0.0
 11
180.039197
 21
148.3589899999999
 31
0.0
  0
LINE
  8
ITEM_50
 10
220.039197
 20
308.35899
 30
0.0
 11
180.039197
 21
308.35899
 31
0.0
  0
LINE
  8
ITEM_50
 10
220.039197
 20
148.3589899999999
 30
0.0
 11
220.039197
 21
308.35899
 31
0.0
  0
LINE
  8
ITEM_50
 10
295.4873779999999
 20
148.3589899999999
 30
0.0
 11
455.487378
 21
148.3589899999999
 31
0.0
  0
LINE
  8
ITEM_50
 10
455.487378
 20
148.3589899999999
 30
0.0
 11
455.487378
 21
308.35899
 31
0.0
  0
LINE
  8
ITEM_50
 10
455.487378
 20
308.35899
 30
0.0
 11
295.4873779999999
 21
308.35899
 31
0.0
  0
LINE
  8
ITEM_50
 10
295.4873779999999
 20
308.35899
 30
0.0
 11
295.4873779999999
 21
148.3589899999999
 31
0.0
  0
LINE
  8
ITEM_50
 10
455.487378
 20
308.35899
 30
0.0
 11
456.987378
 21
308.35899
 31
0.0
  0
LINE
  8
ITEM_50
 10
459.487378
 20
305.85899
 30
0.0
 11
459.487378
 21
150.8589899999999
 31
0.0
  0
LINE
  8
ITEM_50
 10
456.987378
 20
148.3589899999999
 30
0.0
 11
455.487378
 21
148.3589899999999
 31
0.0
  0
ARC
  8
ITEM_50
 10
456.987378
 20
305.85899
 30
0.0
 40
2.5
 50
0.0
 51
90.0
  0
ARC
  8
ITEM_50
 10
456.987378
 20
150.8589899999999
 30
0.0
 40
2.5
 50
270.0
 51
0.0
  0
LINE
  8
ITEM_50
 10
295.4873779999999
 20
292.35899
 30
0.0
 11
455.487378
 21
292.35899
 31
0.0
  0
LINE
  8
ITEM_50
 10
295.4873779999999
 20
284.35899
 30
0.0
 11
455.487378
 21
284.35899
 31
0.0
  0
LINE
  8
ITEM_50
 10
295.4873779999999
 20
252.3589899999999
 30
0.0
 11
455.487378
 21
252.3589899999999
 31
0.0
  0
LINE
  8
ITEM_50
 10
295.4873779999999
 20
244.3589899999999
 30
0.0
 11
455.487378
 21
244.3589899999999
 31
0.0
  0
LINE
  8
ITEM_50
 10
295.4873779999999
 20
212.3589899999999
 30
0.0
 11
455.487378
 21
212.3589899999999
 31
0.0
  0
LINE
  8
ITEM_50
 10
295.4873779999999
 20
204.3589899999999
 30
0.0
 11
455.487378
 21
204.3589899999999
 31
0.0
  0
LINE
  8
ITEM_50
 10
295.4873779999999
 20
172.3589899999999
 30
0.0
 11
455.487378
 21
172.3589899999999
 31
0.0
  0
LINE
  8
ITEM_50
 10
295.4873779999999
 20
164.3589899999999
 30
0.0
 11
455.487378
 21
164.3589899999999
 31
0.0
  0
ARC
  8
ITEM_50
 10
293.9873779999999
 20
150.8589899999999
 30
0.0
 40
2.5
 50
180.0
 51
270.0
  0
ARC
  8
ITEM_50
 10
293.9873779999999
 20
305.85899
 30
0.0
 40
2.5
 50
90.0
 51
180.0
  0
LINE
  8
ITEM_50
 10
293.9873779999999
 20
148.3589899999999
 30
0.0
 11
295.4873779999999
 21
148.3589899999999
 31
0.0
  0
LINE
  8
ITEM_50
 10
291.4873779999999
 20
305.85899
 30
0.0
 11
291.4873779999999
 21
150.8589899999999
 31
0.0
  0
LINE
  8
ITEM_50
 10
295.4873779999999
 20
308.35899
 30
0.0
 11
293.9873779999999
 21
308.35899
 31
0.0
  0
LINE
  8
ITEM_50
 10
295.4873779999999
 20
148.3589899999999
 30
0.0
 11
295.4873779999999
 21
308.35899
 31
0.0
  0
LINE
  8
ITEM_50
 10
224.039197
 20
275.35899
 30
0.0
 11
291.4873779999999
 21
275.35899
 31
0.0
  0
LINE
  8
ITEM_50
 10
224.039197
 20
261.35899
 30
0.0
 11
291.4873779999999
 21
261.35899
 31
0.0
  0
LINE
  8
ITEM_STPG
 10
212.464439
 20
268.35899
 30
0.0
 11
533.7966099999999
 21
268.35899
 31
0.0
  0
LINE
  8
ITEM_50
 10
224.039197
 20
195.3589899999999
 30
0.0
 11
291.4873779999999
 21
195.3589899999999
 31
0.0
  0
LINE
  8
ITEM_STPG
 10
215.314772
 20
188.3589899999999
 30
0.0
 11
534.3701829999999
 21
188.3589899999999
 31
0.0
  0
LINE
  8
ITEM_50
 10
224.039197
 20
181.3589899999999
 30
0.0
 11
291.4873779999999
 21
181.3589899999999
 31
0.0
  0
LINE
  8
ITEM_50
 10
180.039197
 20
473.1249889999999
 30
0.0
 11
178.539197
 21
473.1249889999999
 31
0.0
  0
LINE
  8
ITEM_50
 10
176.039197
 20
475.6249889999999
 30
0.0
 11
176.039197
 21
510.6249889999999
 31
0.0
  0
LINE
  8
ITEM_50
 10
178.539197
 20
513.1249889999999
 30
0.0
 11
180.039197
 21
513.1249889999999
 31
0.0
  0
LINE
  8
ITEM_50
 10
220.039197
 20
473.1249889999999
 30
0.0
 11
221.539197
 21
473.1249889999999
 31
0.0
  0
LINE
  8
ITEM_50
 10
224.039197
 20
475.6249889999999
 30
0.0
 11
224.039197
 21
510.6249889999999
 31
0.0
  0
LINE
  8
ITEM_50
 10
221.539197
 20
513.1249889999999
 30
0.0
 11
220.039197
 21
513.1249889999999
 31
0.0
  0
ARC
  8
ITEM_50
 10
178.539197
 20
510.6249889999999
 30
0.0
 40
2.5
 50
90.0
 51
180.0
  0
ARC
  8
ITEM_50
 10
221.539197
 20
510.6249889999999
 30
0.0
 40
2.5
 50
0.0
 51
90.0
  0
ARC
  8
ITEM_50
 10
221.539197
 20
475.6249889999999
 30
0.0
 40
2.5
 50
270.0
 51
0.0
  0
ARC
  8
ITEM_50
 10
178.539197
 20
475.6249889999999
 30
0.0
 40
2.5
 50
180.0
 51
270.0
  0
LINE
  8
ITEM_50
 10
180.039197
 20
513.1249889999999
 30
0.0
 11
220.039197
 21
513.1249889999999
 31
0.0
  0
LINE
  8
ITEM_50
 10
180.039197
 20
473.1249889999999
 30
0.0
 11
180.039197
 21
513.1249889999999
 31
0.0
  0
LINE
  8
ITEM_50
 10
180.039197
 20
473.1249889999999
 30
0.0
 11
220.039197
 21
473.1249889999999
 31
0.0
  0
LINE
  8
ITEM_50
 10
220.039197
 20
513.1249889999999
 30
0.0
 11
220.039197
 21
473.1249889999999
 31
0.0
  0
LINE
  8
ITEM_50
 10
530.935559
 20
513.1249889999999
 30
0.0
 11
530.935559
 21
473.1249889999999
 31
0.0
  0
LINE
  8
ITEM_50
 10
570.935559
 20
473.1249889999999
 30
0.0
 11
570.935559
 21
513.1249889999999
 31
0.0
  0
LINE
  8
ITEM_50
 10
570.935559
 20
473.1249889999999
 30
0.0
 11
530.935559
 21
473.1249889999999
 31
0.0
  0
LINE
  8
ITEM_50
 10
570.935559
 20
513.1249889999999
 30
0.0
 11
529.435559
 21
513.1249889999999
 31
0.0
  0
ARC
  8
ITEM_50
 10
572.435559
 20
475.6249889999999
 30
0.0
 40
2.5
 50
270.0
 51
0.0
  0
ARC
  8
ITEM_50
 10
529.435559
 20
475.6249889999999
 30
0.0
 40
2.5
 50
180.0
 51
270.0
  0
ARC
  8
ITEM_50
 10
529.435559
 20
510.6249889999999
 30
0.0
 40
2.5
 50
90.0
 51
180.0
  0
ARC
  8
ITEM_50
 10
572.435559
 20
510.6249889999999
 30
0.0
 40
2.5
 50
0.0
 51
90.0
  0
LINE
  8
ITEM_50
 10
526.935559
 20
475.6249889999999
 30
0.0
 11
526.935559
 21
510.6249889999999
 31
0.0
  0
LINE
  8
ITEM_50
 10
530.935559
 20
473.1249889999999
 30
0.0
 11
529.435559
 21
473.1249889999999
 31
0.0
  0
LINE
  8
ITEM_50
 10
572.435559
 20
513.1249889999999
 30
0.0
 11
570.935559
 21
513.1249889999999
 31
0.0
  0
LINE
  8
ITEM_50
 10
574.935559
 20
475.6249889999999
 30
0.0
 11
574.935559
 21
510.6249889999999
 31
0.0
  0
LINE
  8
ITEM_50
 10
570.935559
 20
473.1249889999999
 30
0.0
 11
572.435559
 21
473.1249889999999
 31
0.0
  0
LINE
  8
ITEM_50
 10
459.487378
 20
503.44254
 30
0.0
 11
526.935559
 21
503.44254
 31
0.0
  0
LINE
  8
ITEM_50
 10
459.487378
 20
489.44254
 30
0.0
 11
526.935559
 21
489.44254
 31
0.0
  0
LINE
  8
ITEM_50
 10
530.935559
 20
148.3589899999999
 30
0.0
 11
530.935559
 21
308.35899
 31
0.0
  0
LINE
  8
ITEM_50
 10
530.935559
 20
308.35899
 30
0.0
 11
570.935559
 21
308.35899
 31
0.0
  0
LINE
  8
ITEM_50
 10
570.935559
 20
308.35899
 30
0.0
 11
570.935559
 21
148.3589899999999
 31
0.0
  0
LINE
  8
ITEM_50
 10
530.935559
 20
148.3589899999999
 30
0.0
 11
529.435559
 21
148.3589899999999
 31
0.0
  0
LINE
  8
ITEM_50
 10
526.935559
 20
150.8589899999999
 30
0.0
 11
526.935559
 21
305.85899
 31
0.0
  0
LINE
  8
ITEM_50
 10
529.435559
 20
308.35899
 30
0.0
 11
530.935559
 21
308.35899
 31
0.0
  0
LINE
  8
ITEM_50
 10
570.935559
 20
308.35899
 30
0.0
 11
572.435559
 21
308.35899
 31
0.0
  0
LINE
  8
ITEM_50
 10
574.935559
 20
305.85899
 30
0.0
 11
574.935559
 21
150.8589899999999
 31
0.0
  0
LINE
  8
ITEM_50
 10
572.435559
 20
148.3589899999999
 30
0.0
 11
570.935559
 21
148.3589899999999
 31
0.0
  0
LINE
  8
ITEM_50
 10
530.935559
 20
148.3589899999999
 30
0.0
 11
570.935559
 21
148.3589899999999
 31
0.0
  0
ARC
  8
ITEM_50
 10
529.435559
 20
305.85899
 30
0.0
 40
2.5
 50
90.0
 51
180.0
  0
ARC
  8
ITEM_50
 10
572.435559
 20
305.85899
 30
0.0
 40
2.5
 50
0.0
 51
90.0
  0
ARC
  8
ITEM_50
 10
572.435559
 20
150.8589899999999
 30
0.0
 40
2.5
 50
270.0
 51
0.0
  0
ARC
  8
ITEM_50
 10
529.435559
 20
150.8589899999999
 30
0.0
 40
2.5
 50
180.0
 51
270.0
  0
LINE
  8
ITEM_50
 10
530.935559
 20
172.3589899999999
 30
0.0
 11
570.935559
 21
172.3589899999999
 31
0.0
  0
LINE
  8
ITEM_50
 10
530.935559
 20
164.3589899999999
 30
0.0
 11
570.935559
 21
164.3589899999999
 31
0.0
  0
LINE
  8
ITEM_50
 10
530.935559
 20
204.3589899999999
 30
0.0
 11
570.935559
 21
204.3589899999999
 31
0.0
  0
LINE
  8
ITEM_50
 10
530.935559
 20
212.3589899999999
 30
0.0
 11
570.935559
 21
212.3589899999999
 31
0.0
  0
LINE
  8
ITEM_50
 10
530.935559
 20
244.3589899999999
 30
0.0
 11
570.935559
 21
244.3589899999999
 31
0.0
  0
LINE
  8
ITEM_50
 10
530.935559
 20
252.3589899999999
 30
0.0
 11
570.935559
 21
252.3589899999999
 31
0.0
  0
LINE
  8
ITEM_50
 10
530.935559
 20
284.35899
 30
0.0
 11
570.935559
 21
284.35899
 31
0.0
  0
LINE
  8
ITEM_50
 10
530.935559
 20
292.35899
 30
0.0
 11
570.935559
 21
292.35899
 31
0.0
  0
LINE
  8
ITEM_50
 10
526.935559
 20
275.35899
 30
0.0
 11
459.487378
 21
275.35899
 31
0.0
  0
LINE
  8
ITEM_50
 10
526.935559
 20
261.35899
 30
0.0
 11
459.487378
 21
261.35899
 31
0.0
  0
LINE
  8
ITEM_50
 10
526.935559
 20
195.3589899999999
 30
0.0
 11
459.487378
 21
195.3589899999999
 31
0.0
  0
LINE
  8
ITEM_50
 10
526.935559
 20
181.3589899999999
 30
0.0
 11
459.487378
 21
181.3589899999999
 31
0.0
  0
CIRCLE
  8
ITEM_50
 10
550.935559
 20
288.35899
 30
0.0
 40
3.5
  0
CIRCLE
  8
ITEM_50
 10
550.935559
 20
168.3589899999999
 30
0.0
 40
3.5
  0
CIRCLE
  8
ITEM_50
 10
540.485648
 20
153.8876389999999
 30
0.0
 40
3.5
  0
CIRCLE
  8
ITEM_50
 10
540.485648
 20
153.8876389999999
 30
0.0
 40
2.85
  0
CIRCLE
  8
ITEM_50
 10
562.935559
 20
300.35899
 30
0.0
 40
2.85
  0
CIRCLE
  8
ITEM_50
 10
562.935559
 20
300.35899
 30
0.0
 40
3.5
  0
CIRCLE
  8
ITEM_50
 10
189.589285
 20
297.887639
 30
0.0
 40
3.5
  0
CIRCLE
  8
ITEM_50
 10
189.589285
 20
297.887639
 30
0.0
 40
2.85
  0
CIRCLE
  8
ITEM_50
 10
200.039197
 20
288.35899
 30
0.0
 40
3.5
  0
CIRCLE
  8
ITEM_50
 10
200.039197
 20
168.3589899999999
 30
0.0
 40
3.5
  0
CIRCLE
  8
ITEM_50
 10
212.039197
 20
156.3589899999999
 30
0.0
 40
2.85
  0
CIRCLE
  8
ITEM_50
 10
212.039197
 20
156.3589899999999
 30
0.0
 40
3.5
  0
CIRCLE
  8
ITEM_50
 10
210.039197
 20
288.35899
 30
0.0
 40
1.0
  0
CIRCLE
  8
ITEM_50
 10
210.039197
 20
288.35899
 30
0.0
 40
0.205974
  0
CIRCLE
  8
ITEM_50
 10
305.4873779999999
 20
288.35899
 30
0.0
 40
0.205974
  0
CIRCLE
  8
ITEM_50
 10
305.4873779999999
 20
288.35899
 30
0.0
 40
1.0
  0
CIRCLE
  8
ITEM_50
 10
540.935559
 20
288.35899
 30
0.0
 40
0.205974
  0
CIRCLE
  8
ITEM_50
 10
540.935559
 20
288.35899
 30
0.0
 40
1.0
  0
CIRCLE
  8
ITEM_50
 10
445.487378
 20
288.35899
 30
0.0
 40
1.0
  0
CIRCLE
  8
ITEM_50
 10
445.487378
 20
288.35899
 30
0.0
 40
0.205974
  0
LINE
  8
ITEM_STPG
 10
172.0771039999999
 20
228.3589899999999
 30
0.0
 11
580.836828
 21
228.3589899999999
 31
0.0
  0
LINE
  8
ITEM_STPG
 10
550.935559
 20
318.176149
 30
0.0
 11
550.935559
 21
135.007662
 31
0.0
  0
LINE
  8
ITEM_STPG
 10
200.039197
 20
136.3533159999999
 30
0.0
 11
200.039197
 21
316.5993589999999
 31
0.0
  0
LINE
  8
ITEM_50
 10
570.935559
 20
497.1249889999999
 30
0.0
 11
530.935559
 21
497.1249889999999
 31
0.0
  0
LINE
  8
ITEM_50
 10
570.935559
 20
489.1249889999999
 30
0.0
 11
530.935559
 21
489.1249889999999
 31
0.0
  0
LINE
  8
ITEM_50
 10
455.487378
 20
500.44254
 30
0.0
 11
295.4873779999999
 21
500.44254
 31
0.0
  0
LINE
  8
ITEM_50
 10
455.487378
 20
492.44254
 30
0.0
 11
295.4873779999999
 21
492.44254
 31
0.0
  0
LINE
  8
ITEM_50
 10
220.039197
 20
497.1249889999999
 30
0.0
 11
180.039197
 21
497.1249889999999
 31
0.0
  0
LINE
  8
ITEM_50
 10
220.039197
 20
489.1249889999999
 30
0.0
 11
180.039197
 21
489.1249889999999
 31
0.0
  0
LINE
  8
ITEM_50
 10
682.2631639999999
 20
513.1249889999999
 30
0.0
 11
837.2631639999999
 21
513.1249889999999
 31
0.0
  0
LINE
  8
ITEM_50
 10
839.763164
 20
510.6249889999999
 30
0.0
 11
839.763164
 21
475.6249889999999
 31
0.0
  0
LINE
  8
ITEM_50
 10
679.7631639999999
 20
510.6249889999999
 30
0.0
 11
679.7631639999999
 21
475.6249889999999
 31
0.0
  0
LINE
  8
ITEM_50
 10
682.2631639999999
 20
473.1249889999999
 30
0.0
 11
837.2631639999999
 21
473.1249889999999
 31
0.0
  0
ARC
  8
ITEM_50
 10
682.2631639999999
 20
510.6249889999999
 30
0.0
 40
2.5
 50
90.0
 51
180.0
  0
ARC
  8
ITEM_50
 10
837.2631639999999
 20
510.6249889999999
 30
0.0
 40
2.5
 50
0.0
 51
90.0
  0
ARC
  8
ITEM_50
 10
837.2631639999999
 20
475.6249889999999
 30
0.0
 40
2.5
 50
270.0
 51
0.0
  0
ARC
  8
ITEM_50
 10
682.2631639999999
 20
475.6249889999999
 30
0.0
 40
2.5
 50
180.0
 51
270.0
  0
ENDSEC
  0
EOF
